Sie sind auf Seite 1von 1

Forever Yours - Avicii (Intro)

Capo: III (alle Zahlen vom Capo aus gerechnet.

e|3---------3-----2---------2-----0--------0-----7----5---|
B|------0---------------0------------------------8----7---|
G|--------------------------------------2-----------------|
D|2---2---2---2---0---0---0---0------------------9----7---|
A|--------------------------------3---3---3---3-----------|
E|--------------------------------------------------------|

e|------3---------------8---------------------------------|
B|----0------0-------0-----0--------3--0----------1--0----|
G|---------0----------------------0------0----------------|
D|2--------------5-----------------------------2----------| x3
A|----------------------------2-------------0-------------|
E|--------------------------------------------------------|