Sie sind auf Seite 1von 38

1.

when you gonna learn

Verse1

|**|

|***|

|-------5--5------|-----------------|-----------------|------------3---4-|
|----5------------|-----------------|-------2---2-----|-------3----------|
|-3---------5-6-7-|-8---------------|----2------------|----3-----1---2---|
|-----------------|----8--1---1--1--|-0-----------0---|-1----------------|

|-------5--5------|-----------------|-----------------|------------3---4-|
|----5------------|-----------3-----|-------2---2-----|-------3----------|
|-3---------5-6-7-|-8------------3--|----2------------|----3-----1---2---|
|-----------------|----8--1---------|-0----------0-0--|-1----------------|

|-------5--5------|-----------------|-----------------|------------3---4-|
|----5------------|--------------3--|-------2---------|-------3----------|
|-3---------5-6-7-|-8---------3-----|----2------------|----3-----1---2---|
|-----------------|----8--1---------|-0---------0--0--|-1----------------|

|-------5--5------|-----------------|-----------------|------------3---4-|
|----5------------|-----------------|-------2---------|-------3----------|
|-3---------5-6-7-|-8---------------|----2------2-----|----3-----1---2---|
|-----------------|----8--1---1--1--|-0------------0--|-1----------------|

Chorus

|***|

|---3---3---3---3-|----7------6---6-|--5---5--------5-|----6-------------|
|-----------------|-----------------|----------5------|--------------3---|
|-1---1---1---1---|/5-----4------4--|-3---3-------3---|/4---------3------|
|-----------------|-----------------|---------3-------|-------1----------|

|---3---3---3---3-|----7---------6--|--5---5--------5-|----6-------------|
|-----------------|-----------6-----|----------5------|--------------3---|
|-1---1---1---1---|/5-----4---------|-3---3-------3---|/4---------3------|
|-----------------|-----------------|---------3-------|-------1----------|

Verse2
|-------5--5------|-----------------|-----------------|------------3---4-|

|----5------------|-----------------|-------2---2-----|-------3----------|
|-3---------5-6-7-|-8---------------|----2------------|----3-----1---2---|
|-----------------|----8--1---1--1--|-0-----------0---|-1----------------|

|-------5--5------|-----------------|-----------------|------------3---4-|
|----5------------|-----------3-----|-------2---2-----|-------3----------|
|-3---------5-6-7-|-8------------3--|----2------------|----3-----1---2---|
|-----------------|----8--1---------|-0----------0-0--|-1----------------|

|-------5--5------|-----------------|-----------------|------------3---4-|
|----5------------|-----------------|-------2---------|-------3----------|
|-3---------5-6-7-|-8---------3-----|----2------------|----3-----1---2---|
|-----------------|----8--1------1--|-0---------0--0--|-1----------------|

|-------5--5------|-----------------|-----------------|------------3---4-|
|----5------------|-----------------|-------2---------|-------3----------|
|-3---------5-6-7-|-8---------------|----2------2-----|----3-----1---2---|
|-----------------|----8--1---1--1--|-0------------0--|-1----------------|

Chorus

Verse3
|-------5--5------|-----------------|-----------------|------------3---4-|
|----5------------|-----------------|-------2---2-----|-------3----------|
|-3---------5-6-7-|-8---------------|----2------------|----3-----1---2---|
|-----------------|----8--1---1--1--|-0-----------0---|-1----------------|

|-------5--5------|-----------------|-----------------|------------3---4-|
|----5------------|-----------3-----|-------2---2-----|-------3----------|
|-3---------5-6-7-|-8------------3--|----2------------|----3-----1---2---|
|-----------------|----8--1---------|-0----------0-0--|-1----------------|

Chorus

Last Chorus
|***************|

|****|

|***|

|---3-----3-------|----7---------6--|--5---5--------5-|----6-------------|
|-----------3-3---|-----------6-----|----------5------|--------------3---|
|-1---1---------1-|/5-----4---------|-3---3-------3---|/4---------3------|
|-----------------|-----------------|---------3-------|-------1----------|

|---3---3---3---3-|----7---------6--|--5---5--------5-|----6-------------|
|-----------------|-----------6-----|----------5------|-----------3--3---|
|-1---1---1---1---|/5-----4---------|-3---3-------3---|/4----------------|
|-----------------|-----------------|---------3-------|-------1----------|

|---3---3---3---3-|----7------6-----|--5---5--------5-|----6-------------|
|-----------------|--------------6--|----------5------|--------------3---|
|-1---1---1---1---|/5-----4---------|-3---3-------3---|/4---------3------|
|-----------------|-----------------|---------3-------|-------1----------|

|----3-3-----3-3--|----7-----6--6---|--5---5--------5-|----6-------------|
|-----------------|-----------------|----------5------|----------3-3-----|
|-1-------1-------|/5-----4----4----|-3---3-------3---|/4------------3---|
|-----------------|-----------------|---------3-------|-------1----------|

Taken from The BassMasta

2. Jamiroquai - too young to die


Standard tuning: EADG
Tabbey by - RTBM

Verse I
|----------------------------------------------------------|
|--------------------------1------1------8-8-----6-5-------|
|-1-3-1---3-3-1---3-----1h3----1h3--6---8---6---6-------3--|
|------1h3-----1h3-321-3----1-3------8-6-----654----43-6---|

Chorus
|---5------------------6----------------------|
|--5--6--456--4566--4h6-----5--6-666--6--8----|
|-3--4--4----4-----4----43-3--4-----4-----8-8-|
|-------------------------------4----4--6--6--|

Chorus
|---5------------------6----------------------|
|--5--6--456--4566--4h6-----5--6-666-----8----|
|-3--4--4----4-----4----43-3--4-----4-6---8-8-|
|-------------------------------4----4--6--6--|

Verse II

Verse ending

|---------------------------------------------|-------------|
|------------------------1------1------8-8----|---6-5-------|
|-3-1---3-3-1---3-----1h3----1h3--6---8---6---|--6-------3--|
|----1h3-----1h3-321-3----1-3------8-6-----65-|-4----43-6---|

Verse ending:

II

III

|------------|------3-4--|
|---6-5------|---7-------|
|--6---6---3-|--6--1-2-3-|
|-4-----3-6--|-5---------|

Play Chorus, Verse, Chorus - END!!

3. Blow Your Mind


**************

Transcribed by Sampo Vesa <svesa@cc.hut.fi>

(note: Riffs 1 & 2 are played with slight variations


throughout and I'm not going to figure out all those little
fills and ghost notes (x). I'll just put a few essential
variations and fills in brackets () )

Riff 1
------

G--|-----7--------------7-------------|----------------------D--|-------------------or-------------|---------------7(h5)---etc.
A(0|h)5----5--5----0h5--5-5--5--6--7--|--7(x)7-----------(x)-E--|----------------------------------|---------6--5(5)-----(/)(before
Riff 2)
Riff 2
------

G--|-----8--------------8-------------|----------------------D--|-------------------or-------------|---------------8(h6)---etc.
A(5|/)6----6--6----5/6--6-6--6--7--8--|--8(x)8-----------(x)-E--|----------------------------------|---------7--6(6)-----()(before
Riff 1)

D-------------(8)(6)-A-----------(8)----(8)

D-------------(8p6)---

() - variations

Break 1
-------

G---------------D----------3----A--6--4-------3-E----------------

Break 2
-------

G-----------------------------------------<5>----------D----------3-----------------------3---------<5>-------A--6--4-------3------------6--4---------3----------(/4)E-------------------------------------------------------

<> - natural harmonics

Break before keyboard solo


--------------------------

G-----------------------------------------------------D--8--6----4--3--------------------4--3---------------A------------------6--4----6--4-------------6--4----3-E-----------------------------------------------------2nd time: A-0-

Taken from BASSMASTA.NET

4.Emergency On Planet Earth


Album:Emergency On Planet Earth
tabbed by kieran tatum - kieran_tatum@hotmail.com

This should be 100% correct but if not please correct it. Thos is also my first tab
so it
might be a dodgey in places.
Its a great funky song, enjoy!

intro/verse (slapped)

G:----------------------8------------5--------7--------8----------D:-----5-------3--------------------------------------------------A:------------------6------6--55--3-----3--5----5---6----6--------E:--3----3--1----1------------------------------------------44-----

bridge (slapped)

G:-----------------------5--5--5---7-----8-----------6---6---6----D:----5-----7-----8-----------------------------6-----------------A:---------------------3--3--3---5---5-6---6------4----4---4------E:--3---3-5---5-6---6-------------------------4--------------------

G:-----------------------5--5--5---7-----8----------6-------8-----D:----5-----7-----8-----------------------------6-------8---------A:---------------------3--3--3---5---5-6---6------4-------6-------E:--3---3-5---5-6---6-------------------------4-------6------------

Brought to you by the BassMas

5. Space Cowboy

(Video Version)

Tabbed by: Eric Siljander

< M_Siljander@bc.sympatico.ca >

organ intro
G-|--8----10----13--|
D-|-----------------|
A-|--6----8-----11--|
E-|-----------------|

verses
|------(6)-------(5)--------4---------------------------|------------------------------------------------6--6h8-|--4---------3---------2--------------------------------|--------------------------------2--2--2-2--2/4----------

-------8-------------5-5-------------6----------------------------------------8-----6-----------------------6-----4------------------6--6h8--4---6---6--4--4--3-------3-3--2---4---4--2--2------------------------------------------------------------------------2--2--2-2-2/4----------

transition to chorus
----6-6------------4-4-----------------|-----------------------------|
----------------------------------6-6--|--------4-6-4-6/8--6---------|
-4-------4-4----2-------2-2------------|-----6----------------8--6~--|
-------------------------------4-------|--4--------------------------|

chorus**
||----------------------------------------------------------------||------------------6/8--6--8--6----------------------------------||--6--8--------------------------8--6----6--8-------4h6-6-4------||----------4--6--------------------------------4h6----------6--4--

-----------------------||
-----------------------||
--4--6h8-6-4--6/8-6-4--||
-----------------------||

interlude-1
|----------------11-11h13--|

|---------------11---8--10--13-|

|--------------------------| repeat

|------------------------------|

|--------------------------| 6 times |--------------------6--8---11-|


|--2h4-4--2h4-4------------|

then...|-2h4-4--2h4-4-----------------|

Variation in 2nd and last chorus**


||----8----8-------10--10-----------------------------------||-----------------------------6/8-6-8-6--------------------||--6----6----6--8---8---x---------------8-6---6--8---------||-------------------------6---------------------------4--6--

--8--6-----------------------------||
--------8--6-----6/8~--6-6--6/8~~--||
--------------8--------------------||
-----------------------------------||

interlude-2
|----------------11-11h13--|

|---------------11-11h13xx11x11xx11-|

|--------------------------|repeat |-----------------------------------|
|--------------------------|6 times|-----------------------------------|
|--2h4-4--2h4-4------------|then...|-2h4-4--2h4-4----------------------|

then repeat normal interlude part 3 more times, then resume the other two
chorus parts.

Alright, remember this is the video version, from the single, NOT the
version that's on the album. The album version isn't nearly as good (at
least in my opinion;), and it is a lot harder to tab. Besides, Jami
plays this version when they play live.

I "**"'ed the chorus parts because as Stuart often does, he puts in a


hell of a lot of fills that would take forever to figure out,
so I just put down a couple that I use.

So if anyone has better fills, corrections, comments, or questions,


please e-mail me!

Have fun!!

Taken from BASSMASTA.NET

6. Love Foolosophy
Standard Tuning: EADG
Tabbey By: RTBM

Song Structure: Verse I ,Chorus, Verse II , Chorus ,Break ,Chorus


(END)

Verse I
G|--------------------5--------------|-------------------5------------------|
D|-----9---2----45---5-----9---------|---7-9---2----45--5-----9-9-----------|
A|-----------77--------3-----9--5-7--|-----------77-------3----9--9-7-5-7---|
E|-\-77-7-0-------33----5/7----7---7-|-77---7-0-------33----7----7-------7--|
s s s ss

G|--------------------5-5-----------|----------------------5----------------|
D|--9-9----2-----------5----9-------|--9-9----2-----------5----9------------|
A|---9-------5-----7-5---3---9-5-7--|---9-------5-----7-----3---9-7-7-5h7---|
E|-7---7-00-7-7-5-7-------/7--7---7-|-7---7-00-7-7-5-7--33----7------7------|
ps s sss

Chorus
G|--------------------11--------6------------|
D|----------2-4-------------------2-4---5-7\-|
A|-------45----7-5-7/9---44--2/4-------------|
E|-77-5-7--0----------------5----0---2-3-5---|
s

G|------------------11-11\--------6------------|
D|----------22h4-2/4----------------2-4---5-7--|
A|-------45----------------44--2/4-------------|
E|-77-5-7--0------------------5----0---2-3-5---|
p

G|--------------------11--------6------------|

D|----------2-4-------------------2-4---5-7--|
A|-------45----7-5-7/9---44--2/4-------------|
E|-77-5-7--0----------------5----0---2-3---3-|
s

ss

G|------------------11-11\--------6------------|
D|----------22h4-2/4----------------2-4---5-7--|
A|-------45----------------44--2/4-------------|
E|-77-5-7--0------------------5----0---2-3-5---|
p

Verse II
G|------------------5--------------|------------------5-----------------|
D|---9---2----45---5-----9---------|----9---02---45--5----9-7-4---------|
A|---------77--------3-----9--5-7--|---9------77-------3---9---7-5-7----|
E|-77-7-0-------33----5/7----7---7-|-77--7-0-------33----7----------7---|

G|--------------------5----------|--------------------5-------------|
D|---9----2----45----5---9----9--|----9---2----45----5--99----------|
A|----9-----77------3-----9-7--9-|---9------77------3-----79-555h7--|
E|-77--7-0-------33-----7--------|-77--7-0-------33----7------------|

Break 3x
G|--------4----------------5--------7-4-|
D|----------------2---------------------|
A|-2222222----------3333333-222222-5-2--|
E|---------0000000----------------------|

Break 1x
G|--------4----------------5--------REST--/24--|
D|----------------2-----------------REST-----\-|

A|-2222222----------3333333-222222--REST-------|
E|---------0000000----------------\-REST-------|

7. Jamiroquai
Virtual Insanity
****************

Tabbed By Eric Siljander < M_Siljander@bc.sympatico.ca >

Hey funky bass players, here are some things you need to know to play
the song right...

The Chorus- You need to know how to slap and pop if it is gonna sound
right. However this causes there to be dead notes in among
the clear ones. I won't tab these because it would make it
way too complicated for you and too hard for myself! The
rhythm is alittle jumpy and may be hard to get into at
first, but once you get in the groove, its easy.
The Verses- This section is played with plucking. Try to get some snap
on all the D-string notes. Stu does whenever I've seen him
live, and it sounds good!
The Break-

As Stu often does, he ad-libs everywhere. So to make it


easier on myself, I'll tab the basic pattern and leave
the ad-libbin' to you. Have fun with it.

The bass comes in at the First chorus and goes like this...
G-|--16-16----------------------------------------------------D-|-------16----------4-------5-----------8-----------5--3----A-|---------14----2-------4----4-4----6-----------4--------1-E-|------------------------------------------2--2--------------

---------------------------------------------------------------------4-------5-----------8-----------5--3---------4-------5-------2-------4----4-4----6-----------4--------1---2-------4----4-4--

----------------------------2--2---------------------------------

----------------------------------------------------------------------|
-----8-----------5--3---------4-------5-----------8-----------5-------|
--6-----------4--------1---2-------4----4-4----6-----------4----------|
--------2--2-----------------------------------------2--2--------13--|

verse
|----------------------------------------------------------------------|-----8--------------------6--------------------4------4------3------6-|--6--------------6----4-4-------------4----3-3----2-2----1-1----/4----|--------2--3--4--------------0--1--2-----------------------------------

-----------------------------------------------------------------------------8--------------------6--------------------4------4------3------6~--/6--------------6----4-4-------------4----3-3----2-2----1-1----/4-------------2--3--4--------------0--1--2-----------------------------------

-----------------------------------------------------------------------------8--------------------6--------------------4------4------3------6~~
--/6--------------6----4-4-------------4----3-3----2-2----1-1----/4-------------2--3--4--------------0--1--2-----------------------------------

----------------------------------------------------------------------|
------8--------------------6--------------------4------4----3--1/8~~--|
--/6--------------6----4-4-------------4----3-3----2-2----1-----------|
---------2--3--4--------------0--1--2---------------------------------|

The second chorus


|------------------------------------------------------------------|-----4-------5-----------8-----------5--3---------4-------5-------|--2-------4----4-4----6-----------4--------1---2-------4----4-4----

|----------------------------2--2-----------------------------------

----------------------------------------------------------------------------8-----------5--3---------4-----5--5-5-5-------8-----------5--3------6-----------4--------1---2------4--4-------4--6-----------4--------1---------2--2------------------------------------------2--2--------------

---------------------------------------------------------------------------8-------5-----------8----------------------4-------5-----------8---6-------4----4-4----6----------------------2-------4----4-4----6--------------------------------2-xxx-2-x-2--9----------------------------

----------------------------------------------------------------------------------5--3---------4-------5-----------8----------------------4-----------4--------1---2-------4----4-4----6----------------------2--------2--2-----------------------------------------2-2-2-xx-2x--9----------

---------------------------------------------------------------------------5-----------8-----------5--3---------4-------5-----------8---------4----4-4----6-----------4--------1---2-------4----4-4----6------------------------------2--2-----------------------------------------2--2--

--------------|
-----5--3-----|
--4--------1--|
--------------|

The instrumental break...


Pattern #1
|--10-12-10-12-10--10-12~----------------------------------------------|
|----------------------------------------------------------------------|

|----------------------------------------------------------------------|
|-------------------------6-7-6--6-7-6-7-6-7

8. Cosmic Girl

Album: Travelling Without moving


Played by: Stuart Zender
Tabbed by: Fjon (fjonklein@excite.com)

As usual, Stuart plays loads of litle fills throughout, which I'm not
going to figure out. These are the basic riffs for chorus and verse:

Verse

Fig. 1

Fig. 2

G|----------|--------------| |----------| |--------|


D|--------2-|2-3-4---------| |----------| |-x/--9-|
A|------2---|------4-(0)-2-| |----------| |--------|
E|0--x3-----|--------------| |-0--x-3-2-| |--------|

Fig.1 is sometimes added on to end the end of the verse


Fig.2 Is played going into the choeus.

Chorus
*
G|--------------|---------------|--x4-----6-|--------| * = sometimes
D|--------4-4---|---------------|-----------|--------| play 4-4
A|--------------|---------------|2----2/4---|4--4--4-| instead
E|-4--2-2-----2-|-2--2--2-2-0-2-|-----------|--------|

G|--------------|---------------|--4-4-----6-|-----3---4----6-|
D|--------4-4---|---------------|------------|----------------|
A|--------------|---------------|2-----2/4---|4--1---2---/4---|
E|-4--2-2-----2-|-2--2--2-2-0-2-|------------|----------------|

Taken from BASSMASTA.NET

9. Alright
Album: Travelling Without Moving

Bass Player: Stuart Zender


This Transcription: Lawrence Docherty

Dedications: This ones for Tomsk, and for everyone else from around the
world who mailed me to ask (you know who you are) :o)

This is a deceptively easy number. Keep those disco octaves rock-steady, and
in the sliding section try and add a bit of swing
into the bassline, get yourself grooving ;o) Any comments as usual to my new
address: loafer@larry.prestel.co.uk

Brief key:

3/5 means slide from fret 3 to 5, X means muted note on

corresponding string,
3h5 means hammer-on from fret 3 to fret 5

Intro. (Note - all notes softly plucked (I use my thumb for this section)
and each note not marked X must last!!!)
(There are some stray muted notes in here as well, listen to the
record for timing!)

|--------|--------|--------|--------|--------|--------|--------|--------|
|-------1|--------|-------3|--------|-------1|--------|-------3|--------|
|3-------|--------|3/5-----|--------|3-------|--------|3/5-----|------2-|

|--------|-3------|--------|5-------|--------|-3------|--------|5-------|
...

then into...

Main Riff. (Note - the octaves are all played Stacatto, ie abruptly or
sharply. Use thumb and middle fingers, its the easiest)
(way to play these disco-type things. Some of the notes are slid
onto: I'll mark those with a *. Listen to the)
(record, you'll know what I mean. This riff crops up a lot
throughout the song. I'll only write it down once though.)

|-5-5-5-5|--------|-7-7-7-7|-------4|
|--------|-5-5-5-5|--------|-7-7-7--|
|3-3-3-3-|--------|5-5-5-5-|------2-|
|--------|3-3-3-3-|--------|5-5-5---| repeat lots of times :)

Variations on main riff. (Note - played later on in the song. Various ones,
the three main ones are here. Fiddle with these)
(to get the rest!)

(first one)
*

|-5-5-5-5|--------------|-7-7-5h7-5h7|-----------4|
|--------|-5-5-3h5---3h5|------------|-7-5h7-5h7--|
|3-3-3-3-|--------------|5-5-5---5---|----------2-|
|--------|3-3-3---3-----|------------|5-5---5-----|

(second one)
|---5---8--------|----------|---7---10--------|------------|
|-----------5---8|-5-5-5-3h5|-----------8---10|-7-7-5h7-5h7|
|1/3-3/6---------|----------|3/5-5/8----------|------------|

|--------1/3-3/6-|3-3-3-3---|--------3/5-5/8--|5-5-5---5---|

(third one)
|---5---8----12---8|----12-----15-----19-----15|---7---10--------|-----------|
|------------------|---------------------------|-----------8---10|-7-7-5h7-5
h7|
|1/3-3/6-6/10--3/6-|6/10--10/13--13/17--10/13--|3/5-5/8----------|-----------|
|------------------|---------------------------|--------3/5-5/8--|5-5-5---5--|

The End. Same as the start but play the notes Stacatto a couple of times
instead of once softly. No tab required ;)

--

-Larry Docherty
Internet Technical Support

10. High Times


Album:

These are the basic notes for this song. Enjoy!


(played on a 5-string bass)

Intro (repeat 4 times)


|-----------------|-----------------|

|-2-2--2----------|-----------------|
|---------1-1--1--|-0-0--2----------|
|-----------------|---------3----0--|
|-----------------|-----------4-----|

Verse1
|-----------------|-----------------|-----------------|-------------0h2--|
|-2-2--0--2-------|-----------------|---3--1--3---3p1-|---2--0--0h2------|
|--------2--------|-0-0--2-34-------|--------3-------3|--------2---------|
|-----------------|-----------------|-1---------------|-0----------------|
|-----------------|-----------------|-----------------|------------------|

|----------0h23p20-|
|---2--0--0h2------|
|--------2---------|
|-0----------------|
|------------------|

Taken from The BassMasta

11. Deeper Underground


--------------------->From "Godzilla" sountrack
Tab by Eric Siljander < M_Siljander@bc.sympatico.ca >

h=hammer-on

p=pull-off

/=slide-up

=slide down

~=vibrato

Bass organ Intro (w/distortion) (Slow)


G-|--------------------|--------------------|--------------------|
D-|--------------------|--------------------|--------------------|
A-|-------8----7-------|-------8----7-------|-------8----7-------|

E-|--9--------------6--|--9--------------6--|--9--------------6--|

|--------------------|
|--------------------|
|-------8----7-------|
|--9--------------6--|

MainLine Fig.1 (all w/distortion)


|----------------------|--------------------|--------------------|
|----------------------|--------------------|--------------------|
|----------------------|--7/9--6h7p6--------|--9/10--7/9--7------|
|--7h9--7h9--7--10-10--|--------------9--9--|---------------9-7--|

Fig.2
|----------------------|--------------------|--------------------|
|----------------------|--------------------|--------------------|
|----------------------|--7/9--6h7p6--------|--9/10--7/9--7------|
|--7h9--7h9-7--10-10-0-|--------------9--9--|---------------9-7--|
*
Fig.3
|----------------------|--------------------|--------------------|
|----------------------|--------------------|--6/7---------------|
|----------------------|--7/9--6h7p6--------|-------7/9---7------|
|--7h9--7h9--7--10-10--|--------------9--9--|---------------9-7--|
*
Fig.4
|----------------------|--------------------|---------------------|
|----------------------|--------------------|---------------------|
|----------------------|--7/9--6h7p6--------|-------7h9-p7--------|
|--7h9--7h9--7--10-10--|--------------9--9--|--6h7----------9--7--|
*
Fig.5
|----------------------|--------------------|---------------------|
|----------------------|--------------------|--6/7-6-------------|
|----------------------|--7-7/9-6h7p6-------|----------9p7--------|

|--7h9--7h9--7--10-10--|--------------9--9--|---------------9--7--|
*

Fig.6
|----------------------|--------------------|---------------------|
|----------------------|--------------------|--7------------------|
|----------------------|--7/9--6h7p6--------|-----9--7/9-p7-------|
|--7h9--7h9-7--10-10-0-|--------------9--9--|---------------9--7--|
*

Chorus (w/distortion)
||----------------------|--------------------|-------------7-----6--|
||----------------------|--------------------|-----2----------------|
||----------------------|---------------/9---|----------5-----4-----|
||--9~---9--9~---9--9~--|--8~----5-----------|--0-------------------|

|----------------------|--------------------|-------------7-----6--|
|----------------------|----------------/4--|-----2----------------|
|--4~---4--4~---4--4~--|--3~----0-----------|----------5-----4-----|
|----------------------|--------------------|--0-------------------|

|----------------------|--------------------|-------------7-----6--||
|----------------------|----------------/4--|-----2----------------||
|--4~---4--4~---4--4~--|--3~----0-----------|----------5-----4-----||
|----------------------|--------------------|--0-------------------||

Interlude (w/distortion) (slow and with a light touch)


|--------------------|--------------------|
|-------3----2-------|-------3----2-------|
|--4--------------1--|--4--------------1--|
|--------------------|--------------------|

...then clean (w/o distortion)


|----------------------|------------------|---------------------|
|----------------------|------------------|---------------------|
|----------------------|--9----7----------|--7/9--7/9--7--------|

|--9----9----7--10-10--|------------9--9--|---------------9--7--|

|----------------------|------------------|---------------------|
|----------------------|------------------|---------------------|
|----------------------|--9----7----------|--7/9--7/9--7--------|
|--9----9----7--10-10--|------------9--9--|---------------9--7--|

|----------------------|------------------|---------------------|
|----------------------|------------------|---------------------|
|----------------------|--9----7----------|--7/9--7/9--7--------|
|--9----9----7--10-10--|------------9--9--|---------------9--7--|

|----------------------|------------------|---------------------|
|----------------------|------------------|---------------------|
|----------------------|--9--6h7p6--------|---------------------|
|--9----9--7--10-10-0--|------------9--9--|---------------------|
*

SONG STRUCTURE
-------------Intro
Fig.1

( x2 )

Fig.2
Fig.3
Fig.1

( x3 )

Fig.3
Chorus
Fig.1
Fig.2
Fig.3
Fig.1
Fig.4
Fig.2

( x2 )

Fig.1
Chorus
Interlude
Fig.1
Fig.5
Fig.1
Fig.6
Chorus (repeat till end)

Taken from BASSMASTA.NET

12. CANNED HEAT

Intro slide (@0:00)

Intro (@0:08) - many times

|--------------|-----|

|------------------------|

|--------------|-1---|

|------------------------|

|--------------|-----|

|-0h3h5-0h3h5-0h3h5-0h3h5|

|-13-10-6-3-|-----|

Verse

|------------------------|

(@0:29)

|------------------------|------------------------|------------------------|
|-------------------7----|----8-----8-----8-----8-|----88----8-------------|
|------------------------|------------------------|------------------------|
|-------------5---------6|-------6-----6-----6----|-6-----6-----6----5----3|

|------------------------|------------------------|------------------------|---------4-----5-----6-|
|----5-----5-----5-----55|----5-----5-------------|-----8-----8-----8----8-|---8-------------------|
|------------------------|------------------------|------------------------|------2-----3-----4----|

|-------3-----3-----3----|-3-----3-----3----5----6|-------6-----6-----6----|6----------------------|

|----7-----77----7-----7-|----7-----10----77----5-|------------------------|---------7-------------|
|------------------------|------------------------|----8-----8-----8-----8-|---8-----------8-------|
|-5-----5-----5-----5----|-5-----8-----5-----3----|------------------------|------5----------------|
|------------------------|------------------------|-6-----6-----6-----6----|6-----------6----5----3|

|------------------------|------------------------|------------------------|---------4-----5-----6-|
|----5-----55----55---3h5|----55----5-----5-------|----8-----8-----8-----8-|---8-------------------|
|------------------------|------------------------|------------------------|------2-----3-----4----|
|-------3-----3-----3----|-3-----3-----3-----5---6|-------6-----6-----6----|6----------------------|

Chorus (play 4x, see Playing Guide!)


|-----77-----------------|----------------5-----6-|----77-----------------|----------------------55|
|-----------------88-----|----55----5-------------|-----------------88-----|----5----7-----8-------|
|-5----------------------|-------------3-----4----|5----------------------|-------------------3----|
|----------5--6---------2|-3-----3----------------|----------5--6---------2|-3----5-----6----------|

Verse
|-----7---5h7-----7---5h7|-----7-----7----7----5-|------------------------|------------------------|
|------------------------|------------------------|-----88----7-----88-----|-----8----8----8-----7-|
|-5-----------5----------|-5-----------5----3----|------------------------|------------------------|
|------------------------|------------------------|-6-----------6---------5|6-----------6-----5----|

|------------------------|------------------------|------------------------|---------------5-----6-|
|-----5---3h5-----5---3h5|-----5-----5----55----7-|-----8---7h8-----8----8-|----8----8-------------|

|------------------------|------------------------|------------------------|------------3-----4----|
|-3-----------3----------|-3-----------3-----5----|-6-----------6----------|-6----6----------------|

|-----7---5h7-----7---5h7|---7-------------------|------------------------|------------------------|
|------------------------|----------------7-----55|-----8---7h8-----8---7h8|----8----8-----8-----7-|
|-5-----------5----------|-5-----5-8-------------|------------------------|------------------------|
|------------------------|-------------5-----3----|-6-----------6----------|-6----6-----6-----5----|

|------------------------|------------------------|------------------------|---------4-----5-----6-|
|-----5-----3-----5------|----55----5-----5-----7-|----8-----8-----8-----8-|---8-------------------|
|------------------------|------------------------|------------------------|------2-----3-----4----|
|-3-----------3---------1|-3-----3-----3-----5----|-6-----------6-----6----|6----------------------|

Chorus
|-----77-----------------|----------------5-----6-|----77-----------------|----------------------6-|
|-----------------88-----|----5-----5-------------|-----------------88-----|----5----7-----8-------|
|-5----------------------|-------------3-----4----|5----------------------|-------------------3----|
|----------5--6---------2|-3-----3----------------|-----------5/6---------2|-3----5-----6----------|

|-----77-----------------|------------------------|----77-----------------|----------------5-----6-|
|-----------------88-----|----5-----3-----2-----7-|-----------------88-----|----5----5-------------|
|-5----------------------|------------------------|5----------------------|-------------3-----4----|
|----------5--6---------2|-3-----1-----0-----5----|-----------5/6---------2|-3----3----------------|

|----7-------------------|----------------5-----6-|---7-------------------|----------------5-----6-|

|----------------8-------|----5-----55------------|----------------8-----88|----5----55------------|
|-5----------------------|-------------3-----4----|5----------------------|-------------3-----4----|
|----------5--6-----6---2|-3-----3----------------|----------5--6----------|-3----3----------------|

|----7-----7-------------|----------------------6-|----77-----------------|----------------5-----6-|
|----------------8-----8-|----5-----7-----8-------|-----------------88-----|----55---5-------------|
|-5-----5----------------|-------------------4----|5----------------------|-------------3-----4----|
|-------------6-----6----|-3-----3-----6----------|----------5--6---------2|-3----3----------------|

Intro (many times)

Verse

(@2:27)

|---------5h7-----7---5h7|-----7-----7----7----5-|------------------------|------------------------|
|------------------------|------------------------|-----8-----------8------|7h8-8-8-7h8----8-----7-|
|-------------5----------|-5-----------5-----3----|---------------------0-|------------------------|
|------------------------|------------------------|-6---------5/6----------|------6-----6-----5----|

|------------------------|------------------------|------------------------|---------4-----5-----6-|
|-----5------------5-----|----5555--------5-----7-|-----8-----------8----8-|---8-------------------|
|------------------------|------------------------|------------------------|------2-----3-----4----|
|-3----------1/3--------1|/3--------1--3-----5----|-6---------5/6----------|6----------------------|

|-----7------------7-----|-----7-----7----7----5-|------------------------|------------------------|
|------------------------|------------------------|-----8-----------88---8-|----88---8-----8-----7-|
|-5------------5--------3|/5-----------5----3----|------------------------|------------------------|
|------------------------|------------------------|-6---------5/6----------|-6----6-----6-----5----|

|------------------------|------------------------|------------------------|---------4-----5-----6-|
|-----5------------5-----|----55----------5-----7-|-----8-----------8----8-|---8-------------------|
|------------------------|------------------------|------------------------|------2-----3-----4----|
|-3----------1/3--------1|/3-----3--1--3-----5----|-6---------5/6----------|6----------------------|

Chorus
|-----77-----------------|----------------5-----6-|----77-----------------|----------------5-----6-|
|-----------------88-----|----5-----55------------|-----------------88-----|----5----7-------------|
|-5----------------------|-------------3-----4----|5----------------------|-------------3-----4----|
|----------5--6---------2|-3-----3----------------|-----------5/6---------2|-3----5----------------|

|----7-----99------------|----------------5-----66|----77-----------------|----------------------6-|
|----------------8-----4-|----5-----55------------|-----------------88-----|----5----7-----8-------|
|-5-----7----------------|-------------3-----4----|5----------------------|-------------------4----|
|-------------6-----2----|-3-----3----------------|----------5--6---------2|-3----5-----6----------|

Outro (@3:11)
|----7-----9-----10------|----------------5-----6-|----77----99--1010-----|----------------5-----6-|
|------------------------|------------------------|------------------------|-----------------------|
|-5-----7-----8--------10|~12~--10-----3-----4----|-5-----7-----8------1012|~12~-10-----3-----4----|
|------------------------|------------------------|------------------------|-----------------------|

|----7-----99----10------|----------------5-----6-|----7-----99---10------|------------*-----------|
|------------------------|------------------------|------------------------|------------8h10p8-999-|
|-5-----7-----8--------10|~12~--10-----3-----4----|-5-----7-----8--------10|~12~-10----------------|

|------------------------|------------------------|------------------------|-----------------------|
..up
|----9-----11----1212----|----------------7-----8-|----9-----11---12------|----------------14-12---|
|------------------------|------------------------|------------------------|---------------------14|
|-7-----9-----10-------12|~14~--12-----5-----6----|-7-----9-----10----10-12|~14~-12----------------|
|------------------------|------------------------|------------------------|-----------------------|

|----9----1111---12------|----------------7-----8-|----99----11---1212----|------------*-----------|
|------------------------|------------------------|------------------------|------------7h9-----77-|
|-7-----9-----10-------12|~14~--12-----5-----6----|-7-----9-----10-------12|~14~-12---------7------|
|------------------------|------------------------|------------------------|-----------------------|

|----9-----11----1212----|------------------------|----9----1111--12------|------------------------|
|------------------------|------------------------|------------------------|-------------5---------|
|-7-----9-----10-------12|~14~--12----1214-12-12--|-7-----9-----10-------12|~14~--12--5h7---7--5---|
|------------------------|----------12---------15|------------------------|-----------------------7|

|----9----1111---12------|----------------7-----8-|----99---1111-1212-----|-------------*----------|
|------------------------|------------------------|------------------------|-----------------------|
|-7-----9-----10-------12|~14~--12-----5-----6----|-7-----9-----10-------12|~14/1514-12-----------|
|------------------------|------------------------|------------------------|-----------------//--|
..down
|----7-----9-----10------|----------------55----6-|----77----99--1010-----|----------------12-10---|
|------------------------|------------------------|------------------------|---------------------12|
|-5-----7-----8--------10|~12~--10-----3-----4----|-5-----7-----8--------10|~12~-10----------------|

|------------------------|------------------------|------------------------|-----------------------|

|----7-----9-----10------|------------------------|----7-----9-----10---12|------------------------|
|------------------------|------------------------|------------------------|-----------------------|
|-5-----7-----8-----10-12|~12~--12--12-10-8---10-8|-5-----7-----8-----10---|-12---10--8-------10-8-|
|------------------------|----------------10-----|------------------------|---------------8--------|

|----7-----9-----10------|------------------------|----7-----9-----10---12|-------------*----------|
|------------------------|----------10h12p10------|------------------------|----------5--5h7p5-h7--|
|-5-----7-----8--------10|~12~--10-----------10-12|-5-----7-----8-----10---|~12~-10----------------|
|------------------------|------------------------|------------------------|-----------------------|

|----7-----9-----10----12|------------------------|----7-----9-----10---12|------------------------|
|------------------------|-----------1212-10------|------------------------|----------10-----------|
|-5-----7-----8-----10---|~12~---------------10-8-|-5-----7-----8-----10---|~12~-10------10-8----0-|
|------------------------|------------------------|------------------------|------------------10---|
.."party live"
|----7-----99----10------|------------------------|----7------------------|----------------5-----6-|
|------------------------|------------------------|-----------------8---3h5|----5----5-------------|
|-5-----7-----8----------|------------------------|5----------------------|-------------3-----4----|
|------------------------|------------------------|----------5--6----------|-3----3----------------|

|-----7------------------|----------------5-----66|----7------------------|----------------------6-|
|-----------------8------|----5-----5-------------|-----------------88-----|----5----7-----8-------|
|-5----------------------|-------------3-----4----|5----------------------|-------------------4----|

|-----------5/6---------2|-3-----3----------------|-----------5/6---------2|-3----5-----6----------|

|----7-------------------|----------------55----66|----77-----------------|----------------55----66|
|-----------------8------|----55----5-------------|-----------------88-----|----55---7-------------|
|-5----------------------|-------------3-----4----|5----------------------|-------------3-----4----|
|----------5--6---------2|-3-----3----------------|----------5--6---------2|-3----5----------------|

|----77----7-------------|----------------55----66|-----77----------------|----------------5-----6-|
|----------------88----8-|----55----55------------|------------------88----|----55---5-------------|
|-5-----5----------------|-------------3-----4----|5----------------------|-------------3-----4----|
|-------------6-----6----|-3-----3----------------|----------5--6---------2|-3----3----------------|

|----7-----9-----10------|------------------------|----7-----99----10---12|------------------------|
|------------------------|------------------------|------------------------|-----------------------|
|-5-----7-----8-----7----|~12~--10---10-8------10-|-5-----7-----8-----10---|~12~--10--7--5---------|
|----------------------0-|----------------108----|------------------------|-----------------5--3---|
..up
|----9----1111---12------|------------------------|----9----1111--12------|------------*-----------|
|------------------------|------------------------|------------------------|-----------0-0-0-0-----|
|-7-----9-----10----12-14|~14~--12-----------//---|-7-----9-----10----12-14|~14~-12------------0---|
|------------------------|------------//----------|------------------------|---------------------3-|

|----9-----11----12----14|------------------------|----9-----11----12---14|------------*--------------|
|------------------------|------------------------|------------------------|--------------12----------|
|-7-----9-----10----12---|14p12-12---5-5-7-7-7-7--|-7-----9-----10----12---|14h15p14-12-----12-10-----|

|------------------------|------------------------|------------------------|---------------------12-10|
..fade out..
|----9-----11----12------|------------*-----------|----9-----11---12------|------------*-----------|
|------------------------|------------7h9--7h97--|------------------------|------------------------|
|-7-----9-----10----12-14|~14~--12----------------|-7-----9-----10----12-14|~14~--12--10--10p7-7p5-|
|------------------------|------------------------|------------------------|-----------------------|

Taken from The BassMasta

13. LITTLE L

Intro
|-10---------------------|
|------------------------|
|------6--8--6-6----6--8-|
|------------------------|

Verse/Chorus
|-------8------|-----------------|--------------|----3----------|
|--------------|----6------6---4-|-------3------|---------------|
|-6--6----6-6--|-----------------|--------------|-1----1---1----|
|--------------|-4----4--4---2---|-1--1----1-1--|-------------1-|

|-------8------|-----------------|--------------|---3-3---------|
|--------------|----6------6---4-|-------3------|---------------|
|-6--6----6-6--|-----------------|-------------0|1-----1---1----|
|--------------|-4----4--4---2---|-1--1----1-4--|-------------1-|

Taken from The BassMast

14. Corner of the Earth

Chorus
G-|------------|------------|
D-|----------0-|----------2-|
A-|-1----------|----3--0----|
E-|----1--3----|-1----------|

Verse1

|-

var. -|

G-|---------------|------------------|------------------|-----------------|-------|
D-|---------------|------------------|------------------|-----------------|-------|
A-|-5--5-----5--5-|---5-6--6---6--6--|-8-6--------------|-----------------|-------|
E-|--------5------|-5----------------|-----6--6---6--6--|-8-6-5--5---5--5-|---5-8-|
-1st timw

-2nd time

E-|

---5--5-|--5-3-5|

E-|

---5--3-|5-5-3-5|

E-|

---5--5-|-------|

-3rd time

-4th time
Verse2

G-|---------------|------------------|------------------|-----------------|-------|
D-|---------------|------------------|------------------|-----------------|-------|
A-|-5--5-----5--5-|---5-6--6---6--6--|-8-6--------------|-----------------|-------|
E-|--------5------|-5----------------|-----6--6---6--6--|-8-6-5--5---5--3-|5-5-3-5|
-1st time

E-|

---5--5-|--5-3-5|

E-|

---5--5-|---5-8-|

E-|

--5--5-|-------|

-2nd time

-3rd time

-4th time

Taken from The BassMasta -- http://www.bassmasta.net

15. Feels Just Like It Should


Album: Dynamite
Bass Player: Paul Turner

Tab by Klez

Main Riff:

G|-------------------------------------|
D|--------7-5-5------------------------|
A|--00--0-------503-0----0-0-0-0-~5----|
E|-------------------------------------|

Second Riff(2.06/2.16):

G|-------------------------------------|
D|-------------------------------------|
A|-------------------------------------|
E|--0-0-0-0-0-0-~7-0-0-~5-0-0----------|

Brought to you by the BassMasta

16. Seven days in sunny june


Tabbed by:Martn Endara

Ive spent a hard time tabbing this so please try it before giving
negative votes, we are all trying to submit the coolest tabs!

Intro
G----------------------------D----------------------------A-9/2----2---------------5---E----2-----2--0h1-/3-3h5------

Verse (0:20)
G---------------------------------------D---------------------------------------A--------------0h2/5-55--52h0-----------E-5-55--2-22--2---------------3-33-0h3/5- x2

Chorus (0:38)
G-----------------------------------------------D-------2h4-------4h2---------------------------A-22---4----22-------4-----------5/7-0-5---7h5h7E---2----------2-------11-3-0-3h5---------5------

G----------------------D----------------------A-22---22---------00--3E---2----2--11-3--------

Interlude (0:57)
G-------------------------------D-------------------------------A-------------0h2/5-5------------ x2
E-5-55--2-22-2--------5h3-3-03-5-

Verse (1:15)
G---------------------------------------D---------------------------------------A--------------0h2/5-55--52h0-----------E-5-55--2-22--2---------------3-33-0h3/5- x2

Chorus II (1:33)

G------------------------------------D-------------------------5h3h0------A-22---2h4h0--22-------------------3-E---2------------2---11-3-------55----

G----------------------D----------------------A-22---22---------00--3E---2----2--11-3--------

After this chorus theres a silent part for the bass


after that you have to play several times the chorus
every time there is different riffs inside of it
if you played jamiroquai before you know what Im
Talking about so just improvise.

Have fun!

17. RUNAWAY

Hi guys , i am doin this tab 4 people that really want it on youtube. lol. every1 is
it, ill c wat i can do. :) sorry about the weird wway i wrote this tab. :/. u need 2
read
tab incredibly carefully 4 it 2 work. o and u guys put in extra dynamics to the song,
i think this is rite . Carl Howe
h = Hammer on
(With a number in)= Optional
/ = slide down
Verse / intro

G|-----8-7--5----------------------------------------8---------------------|x8
D|------------8-------------------------3----------------------------------|
A|-----------------------3-------------------------6-----------------------|

E|-8---------------0-3-4---4-4--3-----1------------------------------------|
Chorus
*****************************************************************************

G|-------------------------------------3-h5--------------------------------|
D|--------------------------------3-h5-----------------------66------------|
A|-3-3-33-3-3---33---3-3-33-3-3--------------3-----------------------------|
E|-----------------------------------------------4-4-44-4-4------4-4-44-4-4|

G|-------------------------------------------------------------------------|
D|---6----5----------------------------------------------------------------|
A|--------------------------------------------14/---6-6-66-6-6-6-66-6------|
E|-4----3------1-1-11-1-1--14/---0-0-00-0-0--------------------------------|

G|-------------(5-h7)----------------(4-h7)|Go-to-the-stars-.-ply-threw-again-|
D|-------(5-h7)----------------(4-h6)------|and-then-carry-on-without-goin----|
A|-5-5-------------------4-4---------------|bak-to-the-stars.-----------------|
E|-----------------------------------------|----------------------------------|
Verse::::::::::::::::::::::::::::::::::::::::::::::::::::::::::::::::::::::::

G|-----8-7--5----------------------------------------8---------------------|x8
D|------------8-------------------------3----------------------------------|
A|-----------------------3-------------------------6-----------------------|
E|-8---------------0-3-4---4-4--3-----1------------------------------------|
#############################################################################
Chorus

G|-------------------------------------3-h5--------------------------------|
D|--------------------------------3-h5-----------------------66------------|
A|-3-3-33-3-3---33---3-3-33-3-3--------------3-----------------------------|
E|-----------------------------------------------4-4-44-4-4------4-4-44-4-4|

G|-------------------------------------------------------------------------|
D|---6----5----------------------------------------------------------------|
A|--------------------------------------------14/---6-6-66-6-6-6-66-6------|
E|-4----3------1-1-11-1-1--14/---0-0-00-0-0--------------------------------|

G|-------------(5-h7)----------------(4-h7)|Go-to-the-hashes-.-ply-threw-again-|
D|-------(5-h7)----------------(4-h6)------|and-then-carry-on-without-goin-----|
A|-5-5-------------------4-4---------------|bak-to-the-hashes.-----------------|
E|-----------------------------------------|-----------------------------------|
'''''''''''''''''''''''''''''''''''
Big break for 22 secs (around that)
'''''''''''''''''''''''''''''''''''
!!!!!!!!!!!!!!!!!!!!!!!!!!!!!!!!!!!!!!!!!!!!!!!!!!!!!!!!!!!!!!!!!!!!!!!!!!!!

G|-------------------------------------3-h5--------------------------------|
D|--------------------------------3-h5-----------------------66------------|
A|-3-3-33-3-3---33---3-3-33-3-3--------------3-----------------------------|
E|-----------------------------------------------4-4-44-4-4------4-4-44-4-4|

G|-------------------------------------------------------------------------|
D|---6----5----------------------------------------------------------------|
A|--------------------------------------------14/---6-6-66-6-6-6-66-6------|
E|-4----3------1-1-11-1-1--14/---0-0-00-0-0--------------------------------|

G|-------------(5-h7)----------------(4-h7)|Go-to-the-!'s-.-ply-threw-again-|
D|-------(5-h7)----------------(4-h6)------|and-then-carry-on-without-goin--|
A|-5-5-------------------4-4---------------|bak-to-the-!'s.-----------------|
E|-----------------------------------------|--------------------------------|
==============================================================================

G|-------------------------------------------------------------------------|
D|-------------------------------------------------------------------------|
A|-3-3-33-3-3--33--3-3-33-3-3----------------------------------------------|
E|-------------------------------3----4-4-44-4-4--44--4-4-44-4-4-----------|

G|-------------------------------------------------------------------------|
D|---6-----5---------------------------------------------------------------|
A|------------------------------------------6-6-66-6-6-6-66-6--------------|
E|-4-----3------1-1-11-1-1--11--0-0-00-0-0---------------------------------|

G|-------------------------|-Then-go-back-to-the-equals-sign.-|-------------|
D|-------------------------|----------------------------------|-------------|
A|-5-5-55-5---4-4-44-4-----|Wen-u-get-back-2-here-it-ends-on--|------3------|
E|-------------------------|----------------------------------|-------------|