Sie sind auf Seite 1von 8

KAIOWAS

(several versions)
http://www.muzik.fr.st
from: SEPULTURA
CHAOS A.D.
tuning:Db, Ab, Db, Gb, Bb, Eb
play 4 times
|-------||---------------------------------------------|-------||---------------------------------------------|----7--||7--7-7-7-7-7--7-7------4--4-4-4-4-4--4-4-4-4-|----5--||---------------------------------------------|----5--||5--5-5-5-5-5--5-5-3-3--2--2-2-2-2-2--2-2-2-2-|----0--||0--0-0-0-0-0--0-0-0-0--0--0-0-0-0-0--0-0-0-0-------------------------------------||
------------------------------------||
-3--3-3-3-3-3-3-3-3-3--3-3-3-3------||
------------------------------------||
-1--1-1-1-1-1-1-1-1-1--1-1-1-1--0-0-||
-0--0-0-0-0-0-0-0-0-0--0-0-0-0--0-0-||
rhy.fig1
|------------------------------------------------------||
|------------------------------------------------------||
|-11-11-11-11-11-11-11-11-11-11--13-13-13-13-13-13-13--||
|------------------------------------------------------||
|-9--9--9--9--9--9--9--9--9--9---11-11-11-11-11-11-11--||
|-0--0--0--0--0--0--0--0--0--0---0--0--0--0--0--0--0---||
play with rhy.fig1
|-------------------------------------------------||
|-------------------------------------------------||
|-------------------------------------------------||
|-4--4-4-4-4-4--4-4-4-4-4--6--6-6-6-6-6--6-6-6-6--||
|-3--3-3-3-3-3--3-3-3-3-3--5--5-5-5-5-5--5-5-5-5--||
|-0--0-0-0-0-0--0-0-0-0-0--0--0-0-0-0-0--0-0-0-0--||
PLAY 4TIMES
|--------------------------------------------------||
|--------------------------------------------------||
|-7--7-7-7-7-7-7-7--7-7----------------------------||
|-----------------------------6-6-6-6-6-6-6-6-6-6--||
|-5--5-5-5-5-5-5-5--5-5--3-3-----------------------||
|-0--0-0-0-0-0-0-0--0-0--0-0--6-6-6-6-6-6-6-6-6-6--||
|
|--------------------------------------------------||
|--------------------------------------------------||
|-7--7-7-7-7-7-7-7--7-7----------------------------||
|-----------------------------4-4-4-4-4-4-4-4-4-4--||
|-5--5-5-5-5-5-5-5--5-5--3-3-----------------------||
|-0--0-0-0-0-0-0-0--0-0--0-0--4-4-4-4-4-4-4-4-4-4--||
|--------------||
|--------------||PLAY 4TIMES
|--------------||
|-7--7-6-6-6-X-||
|-5--5-5-5-5-X-||

|-0--0-0-0-0-0-||
|--------------||
|--------------||
|--------------||
|--7--7-7--5-7-||
|--5--5-5--3-5-||
|--0--0-0--0-0-||
|--------------------||
|--------------------||
|--------------------||
|-7-7-7-7-7-5-7-7-5--||
|-5-5-5-5-5-3-5-5-3--||
|-0-0-0-0-0---0-0----||
SOLO
|--8--8--8--8--7--5-5-5-5--3-3-3-3-||
|-10-10-10-10--8--7-7-7-7--5-5-5-5-||
|----------------------------------||
|----------------------------------||
|----------------------------------||
|----------------------------------||
|--8--8--8--8--7--5-5-5-5-5-5--2-2-2-2--0-0-0-0--2-2-2-2--||
|-10-10-10-10--8--7-7-7-7-3-3--3-3-3-3--1-1-1-1--3-3-3-3--||
|---------------------------------------------------------||
|---------------------------------------------------------||
|---------------------------------------------------------||
|---------------------------------------------------------||
|-10-10-10-10--12-12-12--10-10-10-10---8--8--8--8-----|-12-12-12-12--13-13-13--12-12-12-12--10-10-10-10-----|-----------------------------------------------------|-----------------------------------------------------|-----------------------------------------------------|------------------------------------------------------7-7-7-7--5-5-5--3-3-3--5-5--5-||
-8-8-8-8--7-7-7--5-5-5--7-7--7-||
-------------------------------||
-------------------------------||
-------------------------------||
-------------------------------||
|-10-10-10-10--12-12-12--10-10-10-10---8--8--8--8-|-12-12-12-12--13-13-13--12-12-12-12--10-10-10-10-|-------------------------------------------------|-------------------------------------------------|-------------------------------------------------|--------------------------------------------------7-7-7-7--5-5-5-5--3-3-3-3--2--2-||
-8-8-8-8--7-7-7-7--5-5-5-5--3--3-||
---------------------------------||
---------------------------------||
---------------------------------||
---------------------------------||
BY David Clment

================================================================================
This is the first riff:
---------------------------------------------------------------------------------------------------------------------------------------------------------------------8---8---8---8---8---8---8---8---8---8---8---8---8---8---8---8-----------8---8---8---8---8---8---8---8---8---8---8---8---8---8---8---8-----------6---6---6---6---6---6---6----------------------------------------------------------------------------------8---8---8---8---8---8---8---7---7---------------------------------------------------------------------------------8---8---8---8---8---------------8---8---8---8---8--------------------------------------------------7---7---7---7---7---------

This is repeated a bit

---------------------------------------------------------------------------------------8---8---8---8---8---8---8---10--10--10--10--10--10--10---------------7---7---7---7---7---7---7----9---9----9---9----9---9----9----------------5---5---5---5---5---5---5----7---7----7---7----7---7----7----------------5---5---5---5---5---5---5----7---7----7---7----7---7----7---------------------------------------------------------------------------------------Repeat the above riff a few times, then go to the riff below, playing
it a few times as well.
-----------------------------------------------------------------------------------------------------------------10--10--10--10--10--10--10----------------8---8---8---8---8---8---8----9---9---9----9----9---9----9----------------8---8---8---8---8---8---8----7---7---7----7----7---7----7----------------6---6---6---6---6---6---6----7---7---7----7----7---7----7-------------------------------------------------------------------------------------------------------------------------------------------------------------------------------------------------------8---8---8---8---8---8---8------------------8---8---8---8---8---8---8---7---7---7---7---7---7---7--------------------8---8---8---8---8---8---8---5---5---5---5---5---5---5--------------------6---6---6---6---6---6---6---5---5---5---5---5---5---5---------------------------------------------------------------------------------------This is the part before the solo:
------------------------------------------------------------------8---8---8---8---8---8-------8---8---7---7---7---8-------6---6---6---6---6---6----------------------------------The next riff is repeated many times in the solo
----------------------------------------------------------------------------

----------------------------------------------------------------------------------------------------------------------------------------------------------------6--/--8---8---8---8------6---6--/--8---8---8---8------6------------------4--/--6---6---6---6------4---4--/--6---6---6---6------4-----------------------------------------------------------------------------------This is the solo:


---9---9---9---9---8---6---6---6---6---4----11--11-11--11--9---8---8---8---8---6-----------------------------------------------------------------------------------------------------------------------------------------------------------------------------------------------

Repeat this 3X
then play the following
right after:

---3----3---3----1---1--/--3---3---3---3-----4----4---4----2---2--/--4---4---4---4---------------------------------------------------------------------------------------------------------------------------------------------------------------------------------------------11--11--11--11--13--13--13--11--11--11---9---9---9---8---8---8---6---6---6--4---4--/--6---6-----13--13--13--13--14--14--14--13--13--13--11--11--11--9---9---9---8---8---8---6
---6--/--8---8-------------------------------------------------------------------------------------------------------------------------------------------------------------------------------------------------------------------------------------------------------------------------------------------------------------------------------------------------------------------------------------------------------------------------------------------------11--11--11--11--13--13--13--11--11--11---9---9---9---8---8---8---6---6---6--4---4--/--6---6--\--4---3------13--13--13--13--14--14--14--13--13--13--11--11--11--9---9---9---8---8---8---6
---6--/--8---8--\--6---4----------------------------------------------------------------------------------------------------------------------------------------------------------------------------------------------------------------------------------------------------------------------------------------------------------------------------------------------------------------------------------------------------------------------------------------------Tabbed by Butthead <smilin_skull@hotmail.com>
================================================================================
Tabbes by jamesj@svpal.org
Note: This is done on a 12 stringer so its not going to sound
so hot unless you got one.
It's tuned down I believe too, this works for me
DROPPED D TUNING

(6)Db (3)Gb
(5)Ab (2)Bb
(4)Db (1)Eb
Kaiowas

||------------------------------------------------------------------||--||-----||------------------------------------------------------------------||--||-----||*-----------------------------------------------------------------||--||*----||*-----------------------------------------------------------------||--||*----||---5-----5--5--5--5--5-----5--5--3--2-----2--2--2--2--2-----2--2--||--||-----||---0-----0--0--0--0--0-----0--0--0--0-----0--0--0--0--0-----0--0--||--||------

---------------------------------------------------------------||--||-------------------------------------------------------------------------||--||-------------------------------------------------------------------------||--||*------------------------------------------------------------------------||--||*---------2--1-----1--1--1--1-----1-----1--1--1--1--1-----1--1--1--1-----||--||---9--9---0--0-----0--0--0--0-----0-----0--0--0--0--0-----0--0--0--0-----||--||---0--0----

-----------------------------------------------------------|------------------------------------------------------------------------------|------------------------------------------------------------------------------|------------------------------------------------------------------------------|-------------------9--9--9-----9--9--9-----11--11--11--11--11-----11--11--11--|-------------------0--0--0-----0--0--0-----0---0---0---0---0------0---0---0---|--------------------

================================================================================
==
TABLATURE EXPLANATION
==
================================================================================
-------------5h8--- Hammeron
-------------5p8--- Pulloff

-------------(8)--- Ghost Note


-------------------

-------------5/8--- Slide Up
-------------5\8--- Slide Down

--------------x---- Dead Note


-------------------

-------------5~~~-- Vibrato
-------------------

||------|| Repeat Start & End


||*----*||
||*----*||
||------||

Rhythm:
w = whole note
h = half note
q = quarter note
e = eighth note
s = sixteenth note

W
H
Q
E
S

=
=
=
=
=

dotted
dotted
dotted
dotted
dotted

whole
half
quarter
eighth
sixteenth

^ = triplet
================================================================================
==
Created with a shareware version of the BUCKET 'O TAB
==
==
tablature creation software for Windows
==
==
For more information:
==
==
email: gse@ocsystems.com
==
==
US Mail: The Bucket, 3176-B5 Summit Square Dr., Oakton, VA 22124
==
================================================================================
================================================================================
Tab for
by

: KAIOWAS
: SEPULTURA

Song no. 5 off the "Chaos A.D." Album


date

: 21/3/95

tabbed by : RICHARD COOPER


Kingston University
England
(k943707@king.ac.uk)
PLEASE.....allow for any mistakes
Looks(and sounds) ok to me though. Sorry dont know the solo bit.
It's not that hard to work out though.
The strumming is very important so listen to the track a few times
to get the idea.
_____________________________________
D = Down
U = Up
D.DUDUD.DUDUD.DUDUD.DUDUD.DUDUD
this is strumming for the first part...you work out the rest!
**********************************************
ALMOST FORGOT.....DONT FORGET DROPED D TUNING!
**********************************************
On the first four parts the single chord represent a whole strum cycle.
I have made the last bit (where the solo is played) easy by expanding
it (so play the chords once).
if you want mail me about this tab or sepultura or anything, do so!
E-|-----------------------------|---------------------|-----------------------|
B-|-----------------------------|---------------------|-----------------------|
G-|--7--7---4--4---3--3--3--3---|--10--10---12---12---|--7--13--7--11---------|
D-|--7--7---4--4---3--3--3--3---|--10--10---12---12---|--7--13--7--11---------|
A-|--5--5---2--2---1--1--1--1---|--8---8----10---10---|--5--11--5--9----------|
E-|--0--0---0--0---0--0--0--0---|--0---0----0----0----|--0--0---0--0----------|
Main part
next bit
bit after that

E-|-------------------|-------------------------------------------------------|
B-|-------------------|-------------------------------------------------------|
G-|--7---7\6--6-6/7---|---7--7-7-7-6--7--7--7-7-7-6-7-------------------------|
D-|--7---7\6--6-6/7---|---7--7-7-7-6--7--7--7-7-7-6-7-------------------------|
A-|--5---5\4--4-4/5---|---5--5-5-5-4--5--5--5-5-5-4-5-------------------------|
E-|--0----------------|---0--0-0-0-0--0--0--0-0-0-0-0-------------------------|
Slow bit
bit after slow bit (the solo is played over this)
THATS ALL FOLKS!
__________________________________________________________________________
RiChArD cOoPeR
(k943707@king.ac.uk)
_____________________________________________________________________________
____
.
_ .
/# /_\_
|\_|/__/|
________
__&__
| |/o\o\
/ / \/ \ \
/
\
/
\
| \\_/_/
/__|O||O|__ \
| DOPE!!! |
| _ _|
/ |_ |
|/_ \_/\_/ _\ |
\__________>
| (o)(o)
| ||\_ ~|
| | (____) | || _____________________
C ---_)
| ||| \/
\/\___/\__/ // _/
\
| | ___|
| |||_
(_/
|| \_ Happy Happy Joy Joy | | \__/
\// |
|
||
|
| /
\
|| |
|
||\
\___________________/
^
||_ \
\
//_/
______________________/|
\_| o|
\______//
| MMMMMMM DONUTS!!!!!! /
/\___/
__ || __||
\______________________/
/ ||||__
(____(____)
(___)_)
================================================================================
SEPULTURA - KAIOWAS
dropped D tuning
Hate/Love/Fanmail or just comments : 9250128@bn.fnt.hvu.nl

(baz)

I got this tab from the internet recently and i found that it was
WRONG!!!! in some ways! (pretty stupid if you know houw simple it really
is!) anyway here's the correct version (i think :) )
this is not the way to strum it it are just the cords!!!!!
e|---------|
B|---------|
G|-7--4--3-|
D|-7--4--3-|
A|-5--2--1-|
E|-0--0--0-|
play 4*

r
e
p
e
a
t

e|------------|
B|------------|
G|-7--7\5--5--|
D|-7--7\5--5--|

|--------|
|--------|
|-11--13-|
|-11--13-|
|-9---11-|
|-0---0--|
play 4*
r
e
p
e

r
e
p
e
a
t

|--------------|
|--------------|
|-7--13--7--11-|
|-7--13--7--11-|
|-5--11--5--9--|
|-0--0---0--0--|
play 4*

r
e
p
e
a
t

|-------------|
|-------------|
|-7--7/14--13-|
|-7--7/14--13-|
|-5--5/12--11-|
|-0--------0--|
play 4*

r
e
p
e
a
t

A|-5--5\3--3--| a
E|-0-------0--| t
(solo played
oper this
part)