You are on page 1of 10

LAKAS TAMA Lead

e--12-15-13-12-15-13-12-15-13-12--8-12-10-8-12-10-8-12-10-8--7-11-9-7b--------------------------------------------------------------------g--------------------------------------------------------------------d--------------------------------------------------------------------a--------------------------------------------------------------------e--------------------------------------------------------------------11-9-7-11-9-7--12-15-13-12-15-13-12-15-13-12-----2--|x yan
----------------------------------------------------|
----------------------------------------------------|
----------------------------------------------------|
----------------------------------------------------|
----------------------------------------------------|
e---------------------12-12-12-15-15-14-14-12---2x din 2--------|
b--12--12-13-13-12-12-------------------------------------------|
g---------------------------------------------------------------|
d---------------------------------------------------------------|
a---------------------------------------------------------------|
e---------------------------------------------------------------|

TITLE:
ARTIST:
ALBUM:
TABBED BY:
E-MAIL:

tatsulok
bamboo
we stand alone together
silentrocker21
lorenz10_15@yahoo.com

<2 versions, first 1 is the chords and the 2nd is the tab... i also included
the lyrics
the song...>
lorenz10_15@yahoo.com
GUITAR TUNING : STANDARD
<-------------------chordz------------------->
iNtRo:
Bm
VeRsE 1:
Bm - A - Bm - G - Bm - A - G - A - Bm
VeRsE 2:
Bm - A - Bm - G - Bm - A - G - A - Bm
pRe-ChOrUs:
G - F#m - G - F#m - Bm - A - G - A

ChOrUs 1:
Bm - F#m - G - A - Bm
VeRsE 3:
Bm - A - Bm - G - Bm - A - G - A - Bm
pRe-ChOrUs:
G - F#m - G - F#m - Bm - A - G - A
ChOrUs 2:
Bm - F#m - G - A - Bm
aDlIb:
Bm - F#m - G - Em - Em - A - F#m - Bm - Em - F#m
pRe-ChOrUs:
G - F#m - G - F#m - Bm - A - G - A
ChOrUs 3:
Bm - F#m - G - A - Bm
<--------------------------tab----------------------------->

InTrO:
e|--------------------------------------------------------|
B|---------------------------------------------------5~---|
G|-------2~---------2~---------2~---------2~---------4~---|
D|-----0----------0----------0----------0-----------------|
A|---2----------2----------2----------2-------------------|
E|--------------------------------------------------------|
vErSe 1:
Totoy bilisan mo...
e|--------------------------------------------------------------------|
B|-------------------------------------------3------------------------|
G|-------4-----------2-----------4---------0------------4----------2--|
D|-----4-----------2-----------4----------------------4----------2----|
A|---2-----------0-----------2----------------------2----------0------|
E|---------------------------------------3----------------------------|
At baka tamaan pa...
-------------------------------------------------------|
--------3----------2------------------------------5~---|
------0----------2------------2~----------2~------4~---|
----------------------------0-----------0--------------|
---------------0----------2-----------2----------------|
----3--------------------------------------------------|

Totoy makinig ka...


e|--------------------------------------------------------------------|
B|-------------------------------------------3------------------------|
G|--------4----------2-----------4---------0------------4----------2--|
D|------4----------2-----------4----------------------4----------2----|
A|----2----------0-----------2----------------------2----------0------|
E|---------------------------------------3----------------------------|
Ng di matapos-tapos na kaguluhang ito
---------------------------------------|
--------3----------2----------3--------|
------0----------2---------------------|
----------------------------4----------|
---------------0----------2------------|
----3----------------------------------|
PrE-ChOrUs:
Hindi pulat dilaw...
e|-----------------------------------------------|
B|--------3----------------------3---------------|
G|------0------------2---------0-------------2---|
D|-----------------4-----------------------4-----|
A|-----------------------------------------------|
E|----3----------2-----------3-----------2-------|
Hanggat marami...
----------------------------------------|
-------3----------2----------3----------|
-----4----------2----------0--------2---|
------------------------------------2---|
---2----------0---------------------0---|
-------------------------3--------------|
cHoRuS 1:
e|--------------------------------------------------------------|
B|---------------------------------------------------------5~---|
G|----4-------------------------------2~----------2~-------4~---|
D|----4------4------5------7--------0-----------0---------------|
A|----2------4------5------7------2-----------2-----------------|
E|-----------2------3------5------------------------------------|
VeRsE 2:
Ngunit ng suminag...
e|------------------------------------------------|
B|-------------------------------------------3----|
G|--------4----------2-----------4---------0------|
D|------4----------2-----------4------------------|
A|----2----------0-----------2--------------------|
E|---------------------------------------3--------|
Totoy kumilos ka...

------------------------------------------------------|
----------------------------3----------2----------3---|
------4----------2--------0----------2----------------|
----4----------2--------------------------------4-----|
--2----------0---------------------0----------2-------|
------------------------3-----------------------------|
PrE-ChOrUs:
Hindi pulat dilaw...
e|------------------------------------------------|
B|--------3----------------------3----------------|
G|------0------------2---------0-------------2----|
D|-----------------4-----------------------4------|
A|------------------------------------------------|
E|----3----------2-----------3-----------2--------|
Hanggat marami...
----------------------------------------|
-------3----------2----------3----------|
-----4----------2----------0--------2---|
------------------------------------2---|
---2----------0---------------------0---|
-------------------------3--------------|
cHoRuS 2:
e|------------------------------------|
B|------------------------------------|
G|----4-------------------------------|
D|----4------4------5------7------5---|
A|----2------4------5------7------5---|
E|-----------2------3------5------7---|
AdLiB:
e|----------------------------------------------------|
B|----------------------------------7---7-------------|
G|--------------------------7-9-7-9-------9-7-9-7-----|
D|----------7---9-7-----7h9-----------------------9---|
A|------7h9---------9-7-------------------------------|
E|--7~------------------------------------------------|
continuation...
------------------------|
-------------10---------|
----------------9^11~---|
---9-7-7h9--------------|
------------------------|
------------------------|
e|-----------------------------------------|
B|--7-10-7h8h7-----------------------------|
G|-------------11-9-7-11-9-7-9---7---------|
D|-----------------------------9---9-7-9---|
A|-----------------------------------------|

E|-----------------------------------------|
continuation...
-----------------------------------------------------------|
-----------------------------------------------------------|
-----9-7---7-7---------------------------------------------|
---9-----9-----9-7-------------------------------- 7h9-7/9-|
-------------------9-7---------7-9-7----7-9------7---------|
-----------------------10-7-10-------10-----7-10-----------|
e|-------------7-------7-------7-------7-------7-------|
B|-----------7---10^12---10^12---10^12---10^12---10^12-|
G|-----7-9-7-------------------------------------------|
D|---9-------------------------------------------------|
A|-----------------------------------------------------|
E|-----------------------------------------------------|
continuation...
7-7-7-10-7-7-10-7-7-10-7-7-10-7-7-10-7-7-10^12---10---9----|
--------------------------------------------------------10-|
-----------------------------------------------------------|
-----------------------------------------------------------|
-----------------------------------------------------------|
-----------------------------------------------------------|
pRe-ChOrUs:
Hindi pulat dilaw...
e|------------------------------------------|
B|------------------------------------------|
G|-----------------4------------------------|
D|---5------4------4------7------5------7---|
A|---5------4------2------7------5------7---|
E|---3------2-------------5------3------5---|
cHoRuS 3:
e|------------------------------------|
B|------------------------------------|
G|----4---------------------------4---|
D|----4------4------5------7------4---|
A|----2------4------5------7------2---|
E|-----------2------3------5----------|
----------------------------------------|
----------------------------------------|
---4-------------------------------2~---|
---4------4------5------7--------0------|
---2------4------5------7------2--------|
----------2------3------5---------------|
OuTrO:
e|---------------------------------------------|
B|---------------------------------------------|

G|-------2~---------2~---------2~---------2~---|
D|-----0----------0----------0----------0------|
A|---2----------2----------2----------2--------|
E|---------------------------------------------|
------------------------------------|
------------------------------------|
-------2~----------2~----------2~---|
-----0-----------0-----------0------|
---2-----------2-----------2--------|
------------------------------------|
Key:
T
PM
/
\
h
p
~
s
c
^

Tap (Strings)
Palm Muting
Slide Up
Slide Down
Hammer-on
Pull-off
Let the note ringing
Strum softly
Continue and Continuation
Bend

<---------------lyrics--------------->
Verse 1:
Totoy bilisan mo, bilisan mo ang takbo
Ilagan ang mga bombang nakatutok sa ulo mo
Totoy tumalon ka, dumapa kung kailangan
At baka tamaan pa ng mga balang ligaw
Verse 2:
Totoy makinig ka, wag kang magpa-gabi
Baka mapagkamalan kat humandusay dyan sa tabi
Totoy alam mo ba kung ano ang punot dulo
Ng di matapos-tapos na kaguluhang ito
Pre-Chorus:
Hindi pulat dilaw tunay na magkalaban
Ang kulay at tatak ay di syang dahilan
Hanggat marami ang lugmok sa kahirapan
At ang hustisya ay para lang sa mayaman
Chorus:
Habang may tatsulok at sila ang nasa tuktok
Di matatapos itong gulo
Verse 3:
Ngunit ng suminag,kay daming mga tao,
At ang dating munting bukid, ngayoy sementeryo
Totoy kumilos ka, baliktarin ang tatsulok
Tulad ng dukha, nailagay mo sa tuktok

Repeat Pre-Chorus:
Repeat Chorus:
Repeat Pre-Chorus:
Repeat Chorus:
Outro:
Di matatapos itong gulo
ESEM
this is my own version of esem by yano, if you want to get it perfect you
must
learn the 1 whole strings bends, hammer pull on and pull off technique. good
luck.
INTRO: chords: D-A-Bm-G
1 whole bend
1WB

1WB
^

^
^
E--------------------------------------------------------------------------------------------------------|
B--15----------------15----------------------------------------------------------------------------------|
G-----14-12-11-11-12----14-12-11-11h12p11-------11-------------14/14-12h14-12-----------7-9-7---7h9---9--|
D-----------------------------------------12-12----12-12h14-12--^-------------14-12-7h9---^---9-----7-^--|
A--------------------------------------------------------------------------------------------------------|
E--------------------------------------------------------------------------------------------------------|
1whole bend
whole bend
E--------------------------------------------------------------------------------------------------------|
B-------------------------------------8------------------------------------------------------------------|
G--9/(9)-7---7h9-7-----7--7---7h9p7-9---14/(14)-12-14-12-------------------------------------------------|
D--^-------9-------7-9--9---9------------^--------------14-12--------------------------------------------|
A--------------------------------------------------------------------------------------------------------|
E--------------------------------------------------------------------------------------------------------|
1st verse
Chords: D-A-Bm-G

BANAL NA ASO SOLO


------------------------------------------------------------8-|
-------------------------------------------7--8 pull off 7----|
-----------------------------9------9-------------------------|
--9 bend up--7--9--7--9--10-----10-----10---------------------|
--------------------------------------------------------------|
--------------------------------------------------------------|
-------------------------------------------------------------|
--8 pull off 7------7 pull off 5-----------------------------|
----------------8--------------------8 hammer on 9-----------|
----------------------------------9-----------------9--------|
-------------------------------------------------------------|
-------------------------------------------------------------|
-------------------------------------------------------------|
----------------------------------8 bend up 7--------7-------|
----------------------------9------------------9--8----------|
--9 hammer on 10--9--10--9-----9-----------------------------|

-------------------------------------------------------------|
-------------------------------------------------------------|
-------------------------------------------------------------|
--10 bend up 2x..--8 hammer on 10--8-----8-------------------|
--------------------------------------9-----9----------------|
-------------------------------------------------------------|
-------------------------------------------------------------|
-------------------------------------------------------------|
-------------------------------------------------------------|
---------------------------------------10--12--10------------|
----------------7--9--7--9 slide to 12-----------------------|
--7 slide to 9-----------------------------------------------|
-------------------------------------------------------------|
-------------------------------------------------------------|
-------------------10------10 hammer on 12 2x...-------------|
--10 hammer on 12------12------------------------------------|
-------------------------------------------------------------|
-------------------------------------------------------------|
-------------------------------------------------------------|
-------------------------------------------------------------|
-------------------------------------------------------------|
--12 hammer on 15--12-------12 hammer on 13--12--------------|
-----------------------15------------------------15----------|
-------------------------------------------------------------|
-------------------------------------------------------------|
-------------------------------------------------------------|
-------------------------------------------------------------|
--12---------------------------------------------------------|
------15--14--12--11------pull offs 11 back------------------|
-------------------------------------------------------------|
-------------------------------------------------------------|
-------------------------------------------------------------|
Tabs by: Jun Villaruz
bass/Guitars/Vocals of the band
"Flipping Coins"
Song: Always Somewhere (LIVE IN CONCERT-USA)
Band: Scorpions
Tabbed by: Subodh Pun
This is the live unplugged version of the song performed by the band itself
in USA in 1998. I am not going to tabulate the Intro of the song cuz it's
quite similar to the Intro of the plugged one and I am not going to write
the lyric of the song as well. I am just gonna write the tablature of the
solos.

Acoustic guitar is used.


Solo 1
E-------------------------|------------------------------------|
B-------------------------|------------------------------------|
G------------------------2|-4-4/5-4-2-0------------------------|
D--------0-2-3/5-3\2-0-2--|--------------2---------0-2-0-------|
A--0-2-3------------------|------------------0-2-3-------3-2-0-|
E-------------------------|------------------------------------|
E---5-7-8-7\5-------------|---------------------------------|
B-------------------------|---------------------------------|
G-------------------------|---------------------------------|
D-------------------------|---------------------------------|
A-------------------------|---------------------------------|
E-------------------------|---------------------------------|
End of Solo 1
Solo 2
E------8-7-8-------7-5-7--|---5-7-7/8-7-5-3-----------------|
B---5---------5-3---------|-5---------------5---------------|
G-------------------------|---------------------------------|
D-------------------------|---------------------------------|
A-------------------------|---------------------------------|
E-------------------------|---------------------------------|
E---------------------15-13-12-10-|-----10----8----7--------|
B---------------------------------|-------------------------|
G---12(hold and bent)-------------|-7br-----7----7-----7--8b|
D---------------------------------|-------------------------|
A---------------------------------|-------------------------|
E---------------------------------|-------------------------|
E------------------------------|---------------------------|
B----10-12-13-10h12p10-8-------|----------5-6/8-6-5--------|
G------------------------9-7-5-|----5-5-7------------7-----|
D------------------------------|7-5------------------------|
A------------------------------|---------------------------|
E------------------------------|---------------------------|
E----------------------7br--|--8-10-8-7----------------------|
B---------------------------|-----------10-8-------------8br-|
G----2-4-4/5-4-2-0----------|-----------------------7--------|
D--2---------------2--------|-----------------10-10---10-----|
A---------------------------|--------------------------------|
E---------------------------|--------------------------------|
E-----------10-12-15-12-----|
B--10-12-13-----------------|
G---------------------------|
D---------------------------|
A---------------------------|
E---------------------------|
End of Solo 2
Note:
/-slide down

\-slide up
b-bend
r-release
h-hammer